Im Just Looking For Some Help Essay

This essay has a total of 1041 words and 10 pages.

Im Just Looking For Some Help

--------------------------------------------------------------------------
THE LIGHT AND THE GLASS - Coheed and Cambria
--------------------------------------------------------------------------

Tabbed by: joecool71
Email: mattconnellan@yahoo.com

Tuning: Standard

The tenth and final(?) entry in my Coheed series, this one is a bigun'. I got pretty
much everything except the final solo, which is done with far to much distortion and
fade on the cd for me to fathom much of it. Also, there's a some other instruments
in this song other than guitar. Try to filter that out when listening for the riffs. Otherwise, enjoy!

Verse
e|-2-----2-----------------------------------------------------------------------5-----5----------->
B|---3-----3-------------------------------------------------0-------------0----------------------->
G|-----2-----2-----------------------------------------2-------2-------2-0-----0---0-----0--------->
D|-0-----0---------4-5-7-5-4p0-----7-----7-----7-----7---0-------0-2h4-------4-------0-----0-----0->
A|-------------4h5---------------5-----5-----5-----5-------2---------------------------------2-0--->
E|-----------------------------3-----3-----3-----3------------------------------------------------->

e|-------5-----5-----5-----5-----|
B|---------5-----5-----5-----5---|
G|-------------------------------|
D|-----0-----0-----0-----0-----0-|
A|-4-0---------------------------|
E|-------------------------------|

Prechorus (chords)
e|-------|
B|-------|
G|-------|
D|-7---5-|
A|-7---5-|
E|-5---3-|

Prechorus lead
e|-------0-----------0-----------0-----------------|
B|---2-----0-2---2-----0-2---3-------3-------------|
G|-----2-----------2-----------0---0---20----20----|
D|---------------------------------------420---420-|
A|-0-----------0-----------------------------------|
E|-------------------------3-----------------------|

Chorus (chords)
e|---------------|
B|---------------|
G|---------------|
D|-4---4---2-----|
A|-2---0---0---5-|
E|-------------3-|
. . . .
Bridge (chords)
e|-----------|
B|-----------|
G|-----------|
D|-9---7---5-|
A|-9---7---5-|
E|-7---5---3-|

Bridge lead
e|-------|
B|-------|
G|-11-|
D|-------|
A|-------|
E|-------|

Phase II
e|--------------------------------------------------------|
B|--------------------------------------------------------|
G|--------------------------------------------------------|
D|-9--9---9--9-----------------10-10--10-10--10-10--10-10-|
A|-10-10--10-10--9--9---9--9---10-10--10-10--10-10--10-10-|
E|-12-12--12-12--10-10--10-10--8--8---8--8---8--8---8--8--|

Phase III (chords)
e|-------|
B|-------|
G|-----5-|
D|-7---5-|
A|-7---3-|
E|-5-----|
. .
Phase IV
e|-2--2--2--2--2--2--2--2--3--3--3--3--3--3--3--3--|--|
B|--5--5--5--5--5--5--5--5--3--3--3--3--3--3--3--3-|--|
G|-------------------------------------------------|--|
D|-------------------------------------------------|X4|
A|-------------------------------------------------|--|
E|-------------------------------------------------|--|

Phase IV lead
e|---0-2---0-2---0-2----75-------10-------10------10-----10---|--|---0-2---0-2---0-2----75---->
B|-3-----3-----3-----3/5---7/8-10----10-10----10-8----8-7----7-|--|-3-----3-----3-----3/5---7/8->
G|-------------------------------------------------------------|--|----------------------------->
D|-------------------------------------------------------------|X3|----------------------------->
A|-------------------------------------------------------------|--|----------------------------->
E|-------------------------------------------------------------|--|----------------------------->

e|----10-------10------10-------------|
B|-10----10-10----10-8----8-----------|
G|------------------------------7p6---|
D|--------------------------7h9-----7-|
A|------------------------------------|
E|------------------------------------|

Phase V
Continues for 5 more pages >>